Tips på bra privata lärare i Stockholm (Jazz/teori)

Diskutera olika tekniker på bas och kontrabas
Användarvisningsbild
Zoufbass
Medlem
Inlägg: 117
Blev medlem: sön 03 jun 2012, 18:18
Ort: Stockholm

Tips på bra privata lärare i Stockholm (Jazz/teori)

Inlägg av Zoufbass » mån 20 feb 2017, 01:35

Tjena!

Admin får gärna flytta tråden om den ligger på fel avdelning.

Precis som det står i rubriken så söker jag en lärare (helst basist) i Stockholmstrakten som kan få fart på min jazz/teori/improvisation/harmoni.
Kan redan lira och har väl en hyfsad nivå av teori för att vara en arbetande rock/pop-basist så behöver ingen som visar mig hur man spelar penta eller plankar "Sir Duke" utan är istället intresserad av att fördjupa mig i ovanstående och reparera en del hål och ovanor som man plockat upp av att vara helt självlärd.

Kan tänka mig att lämna stan några ggr ifall det är någon riktigt vass pedagogisk person där ute i landet.

Mvh
Soufian

Användarvisningsbild
funkys**t
Medlem++
Inlägg: 6197
Blev medlem: tor 15 mar 2007, 23:27
Ort: Örebröov
Kontakt:

Re: Tips på bra privata lärare i Stockholm (Jazz/teori)

Inlägg av funkys**t » mån 20 feb 2017, 08:06

Sir Duke:

----------------------------------|
|-------9-----------6----------5-4-|
|---6-9----------656----22-525-----|
|-7--------44-767-----33-----------| X2

Bass fill after the horn intro
|-11--11---------|
|---11-----------|
|---------9------|
|----------12119-|


[Verse 1]
|--------------------------|---------------------------|
|---9-----6-----5-----421--|---9-----6-----5-----4---3-|
|--9-9---6-6---5-5---4---4-|--9-9---6-6---5-5---4---3--|
|-7---7-4---4-3---3-2------|-7---7-4---4-3---3-2---1---|


[Pre chorus]
|--------------------------------------|
|-----------------3/13-----------------|
|-776655445566-67------77665544567-79\-|
|--------------------------------------|


[Chorus] X2
|---------589--------------|
|---9----6-----9-----------|
|--9-9--8-----7-76\44-7899-|
|-7---7--------------------|

Horn/Bass/Guitar Harmony
|----------------------4678--13--11---------------------|
|---------6---------46---------13--11-13-119---119----9-|
|-----6----9---2-456------------------------119-----11--|
|-7--7-9-9---24-----------------------------------------|

Now the hard part
|-86464-4-----------------------------1414-1-1--------|
|------6-646-64-4-------------------14------4--414-44-|
|--------------6-6-6464-4242------24------------------|
|---------------------------42--24--------------------|


[Verse 2]
|--------------------------|--------------------------------|
|---9-----6-----5-----421--|---9-9-----6-----5-5-----4----3-|
|--9-9---6-6---5-5---4---4-|--9-9-9---6-6---5-5-5---4----3--|
|-7---7-4---4-3---3-2------|-7-----7-4---4-3-----3-2----1---|


[Pre chorus]
|--------------------------------------|
|-----------------3/13-----------------|
|-776655445566-67------77665544567-79\-|
|--------------------------------------|


[Chorus] X2
|---------589--------------|
|---9----6-----9-----------|
|--9-9--8-----7-76\44-7899-|
|-7---7--------------------|

Chorus like this X2
|-----------589--------------|
|---9-9----6-----9-----------|
|--9-9-9--8-----7-76\44-7899-|
|-7-----7--------------------|

Horn/Bass/Guitar Harmony
|----------------------4678--13--11---------------------|
|---------6---------46---------13--11-13-119---119----9-|
|-----6----9---2-456------------------------119-----11--|
|-7--7-9-9---24-----------------------------------------|

Now the hard part
|-86464-4-----------------------------1414-1-1--------|
|------6-646-64-4-------------------14------4--414-44-|
|--------------6-6-6464-4242------24------------------|
|---------------------------42--24--------------------|

Chorus like this X4
|-----------5-585-------------------|
|---9-9----6-6---6----9-------------|
|--9-9-9--8-------87-7-7-76\44-7899-|
|-7-----7---------------------------|

(Use Stevie's voice to cue you into playing the chorus differently)

Chorus like this X2
|-----------589--------------|
|---9-9----6-----9-----------|
|--9-9-9--8-----7-76\44-7899-|
|-7-----7--------------------|

Horn/Bass/Guitar Harmony
|----------------------4678--13--11---------------------|
|---------6---------46---------13--11-13-119---119----9-|
|-----6----9---2-456------------------------119-----11--|
|-7--7-9-9---24-----------------------------------------|

Now the hard part
|-86464-4-----------------------------1414-1-1--------|
|------6-646-64-4-------------------14------4--414-44-|
|--------------6-6-6464-4242------24------------------|
|---------------------------42--24--------------------|



************************************

| / Slide up
| \ Slide down

************************************

Mollpenta:

1st Scale
1 & 2 & 3 & 4 &
G|-------------0-2-|
D|---------0-2-----|
A|-----0-2---------|
E|-0-3-------------|

2nd Scale
1 & 2 & 3 & 4 &
G|-------------2-4-|
D|---------2-5-----|
A|-----2-5---------|
E|-3-5-------------|

3rd Scale
1 & 2 & 3 & 4 &
G|-------------4-7-|
D|---------5-7-----|
A|-----5-7---------|
E|-5-7-------------|

4th Scale
1 & 2 & 3 & 4 &
G|---------------7-9-|
D|-----------7-9-----|
A|------7-10---------|
E|-7-10--------------|

5th Scale
1 & 2 & 3 & 4 &
G|------------------9-12-|
D|-------------9-12------|
A|-------10-12-----------|
E|-10-12-----------------|
"Oh my god it's the funkys**t!"
Fender Precision-79, Fender JV-83, Fender CS P-59, Mesa
http://davidsodergrenshotfive.se/" onclick="window.open(this.href);return false;

Pedrummer
Medlem
Inlägg: 19
Blev medlem: tis 11 nov 2014, 17:07

Re: Tips på bra privata lärare i Stockholm (Jazz/teori)

Inlägg av Pedrummer » tis 28 mar 2017, 21:11

Jag kan rekommendera Lars Ekman, han är bra!
Grym jazzbasist/kontrabasist och bra lärare
Du hittar honom på Facebook eller skicka en PM så du får hans nummer.
Minds are like parachutes, they only function when open.

Skriv svar